Der Meister Rammstein

Lied über die beunruhighte jugend

Home
Curiosidades
Integrantes
Biografía
Noticias R+
Lyrics
Downloads
Tablaturas
Contacto

Enter subhead content here

Lied von der unruhevollen Jugend

Intro/Chorus
(play th first ‘14’ only in the intro)
E|----|--------------------------------------|
B|----|--------------------------------------|
G|----|--------------------------------------|
D|-14-|-12--15--14-12--10-12-14--12-10-12--7-|
A|-14-|-12--15--14-12--10-12-14--12-10-12--7-|
D|-14-|-12--15--14-12--10-12-14--12-10-12--7-|
 
E|--------------------|
B|--------------------|
G|--------------------|
D|-8-7-5/7-8-7-12--5--|
A|-8-7-5/7-8-7-12--5--|
D|-8-7-5/7-8-7-12--5--|
 
Verse:
(there are some 12’s, 13’s and 14’s you can fill in yourself)
E|-----|
B|-----|
G|-----|
D|-7-7-|
A|-7-7-|
D|-7-7-|
 
 

Enter supporting content here